Слушать музыку Radiohead под названием Paranoid Androidаниме Ergo Proxy

Длительность: 06:23

Уникальных просмотров: 1324

Добавлено: 2016-02-28

Рейтинг: 0     Понравилось     Не понравилось

СкачатьРазмер файла - 8.78 MB
Остальные композиции певца
Лирика к песне:

табулатура на гитаре

Gtr. 1 Acoustic
E||---------------------------------|-------------------------------|
B||-------8---------------8---------|-------8-----------------------|
G||-----------8-----------8---8-----|-----------8---------8---8-----|
D||---------------0---0-----0-------|-----------------0-------0-----|
A||-----x---------0---------x-----0-|--8--8---------0---0---------0-|
E||--8------8---8---6---6---6---6---|--x------x-------------6---6-0-|

Gtr. 1
|--------------------------------|----------------------------0-------|
|--3----3--------------3---------|--3------3---3--3~-------3--3---3---|
|-----------3---3------3---3-----|--3-------------2~----0--0--0---0---|
|--0--------------0----------0-0-|--2----2---2----------2--2--2---2-0-|
|-----------------0--0---1---1---|----------------------------------0-|
|--3--3---3---3------------------|------------------------------------|

Gtr. 2 Elec. w/ Flanger
|--------------------------------|------------------------------------|
|-----------------------15----15-|---------15----------15---------15--|
|--------------------------15----|--15~-15----15--14~~----12--12------|
|--------------------------------|------------------------------------|
|--------------------------------|------------------------------------|
|--------------------------------|------------------------------------|

GTR. 1
|---------------------------------|------------------------------|
|-------3-----------3---3---3---3-|--3------3---3-3~--3-3--3-----|
|-----------3---3---3-------3---3-|--3----3---3---2~--0-0--0-----|
|-----0---------------------------|--2--------2---2~----2--2--0--|
|-----------------0---0---1---1---|---------------------------0--|
|--3------3---3-------------------|------------------------------|

GTR. 2 let ring-----------------------
|---------------------------------|------------------------------|
|---------------------------3---3-|---------3---3-----3-------3--|
|--12~~~~~~~~~~~--------------3---|--3----3---3---2-----0--0-----|
|---------------------------------|------------------------------|
|---------------------------------|------------------------------|
|---------------------------------|------------------------------|

1st Verse

Please could you stop the noise I'm tryin'
GTR. 1
|---------------------------------|-------------------------------|
|-------8---------------8---------|-------8-----------------------|
|-----------8-----------8---8-----|-----------8---------8---8-----|
|---------------0---0-----0-------|-----------------0-------0-----|
|-----x---------0---------x-----0-|--8--8---------0---0---------0-|
|--8------8---8---6---6---6---6---|--x------x-------------6---6-0-|

GTR. 2 let 4 ring
|---------------------------------|-------------------------------|
|--4------------------------------|-------------------------------|
|---------------------------------|-------------------------------|
|---------------------------------|-------------------------------|
|---------------------------------|-------------------------------|
|---------------------------------|-------------------------------|

to get some rest
GTR. 1
|----------------------------------|---------------------------------|
|--3-----3---------------3---------|------3---3-3---3--3-3---3-----|
|------------3---3-------3---3-----|-------------2---2--2-2---2-----|
|--0---------------0-----------0-0-|-------------2---2--2-2---2----|
|------------------0--0----1---1---|-----------------------------x-0-|
|--3---3---3---3-------------------|-0--0---0------------------------|

GTR. 2
|----------------------------------|---------------------------------|
|--------------------------15----15|-------15------------15-------15-|
|-----------------------------15---|-15-15---15/14-14~-14---12-12~

Ролик Смотреть видеоклип Ergo Proxy. Radiohead
Комментарии (0)
Написать комментарий



Каптча: